Rembrandts Tab - I'll Be There For You


Intro
A|-2-2-2p0---------0----2-2-2p0---------0---|
E|-3-------3-1-1-3---3--3-------3-1-1-3---3-|
C|-2--------------------2-------------------|
G|-0--------------------0-------------------|

Couplet I
 G                                         F
So no one told you life was gonna be this way
 G
Your job's a joke, you're broke
                  Bm
Your love life's D.O.A.
 F                C               G
It's like you're always stuck in second gear
         F                C                     D
When it hasn't been your day, your week, your month
              D7
Or even your year, but

Refrain
 G       C         D
I'll be there for you
                          G
(When the rain starts to pour)
          C        D
I'll be there for you
                       G
(Like I've been there before)
         C         D
I'll be there for you
                           F
('Cause you're there for me too)

A|-2-2-2p0---------0----2-2-2p0---------0---|
E|-3-------3-1-1-3---3--3-------3-1-1-3---3-|
C|-2--------------------2-------------------|
G|-0--------------------0-------------------|

Couplet II
 G
You're still in bed at ten
                   F
And work began at eight
 G
You've burned your breakfast
                          Bm
So far, things are going great
 F           C                     G
Your mother warned you there'd be days like these
         F               C                  D
But she didn't tell you when the world has brought
                  D7
You down to your knees that

Refrain

A|-2-2-2p0---------0----2-2-2p0---------0---|
E|-3-------3-1-1-3---3--3-------3-1-1-3---3-|
C|-2--------------------2-------------------|
G|-0--------------------0-------------------|

Pont
 C
No one could ever know me
 C
No one could ever see me
 Em
Sometimes the only one who knows what it's like to be me
 Am
Someone to face the day with
 G
Make it through all the rest with
 F
Someone I'll always laugh with
 D              C         D        Em
Even under the worst I'm best with you

 F                C               G
It's like you're always stuck in second gear
         F                C                     D
When it hasn't been your day, your week, your month
              D7
Or even your year, but

Refrain X2

A|-2-2-2p0---------0----2-2-2p0---------0---|
E|-3-------3-1-1-3---3--3-------3-1-1-3---3-|
C|-2---------------------2-------------------|
G|-0---------------------0-------------------|

Copyright Ukuleletab.net